Ukulele Tablature

Tablature pour ukulele, Tuto, Vidéo et photo sont disponible ici pour tous les Ukulelistes
 
AccueilGalerieFAQRechercherS'enregistrerMembresGroupesConnexion

Partagez | 
 

 Gerudo Valley (Zelda)

Voir le sujet précédent Voir le sujet suivant Aller en bas 
AuteurMessage
Lepticidou
Admin
Admin


Nombre de messages : 1471
Age : 27
Localisation : Genève
Date d'inscription : 05/08/2007

MessageSujet: Gerudo Valley (Zelda)   Ven 27 Juin - 13:35






F#m
D
E
C#
0
2
1
2
0
2
2
2
2
4
4
4
4
1
1
1
à jouer en boulce.


---2--4--5--------2--4--5------------------
-2---------------2--------------------------
--------------------------------------------
--------------------------------------------

--2--4--5---------2--4--5------------------
-3---------------3-------------------------
--------------------------------------------
--------------------------------------------


--0--2--4----------0--2--4---2--2/4--2--1--
-0----------------0-------------------------
--------------------------------------------
--------------------------------------------


--5--4--2----0--0--------4---2--0----------
-2--------2--------3---0------------3--2---
--------------------------------------------
--------------------------------------------

_________________
"La paresse c'est se lever à six heures du matin, pour avoir plus de temps à ne rien faire." (o)==::
Revenir en haut Aller en bas
Voir le profil de l'utilisateur http://www.lepticidou.com
sugar



Nombre de messages : 8
Age : 24
Localisation : Fontainebleau-Seine et marne
Date d'inscription : 30/04/2008

MessageSujet: Re: Gerudo Valley (Zelda)   Ven 27 Juin - 20:49

Cool j'étais en train de l'apprendre sur ma gratte, super synchro d'idée xD

Merci !
Revenir en haut Aller en bas
Voir le profil de l'utilisateur
 
Gerudo Valley (Zelda)
Voir le sujet précédent Voir le sujet suivant Revenir en haut 
Page 1 sur 1
 Sujets similaires
-
» Walnut Valley Festival
» Blue Valley Boys
» [Anime] The Legend Of Zelda ( 1989 )
» The Legend of Zelda
» [ALBI] Sky Valley

Permission de ce forum:Vous ne pouvez pas répondre aux sujets dans ce forum
Ukulele Tablature :: Tablatures Ukulele :: Chords-
Sauter vers: