Ukulele Tablature

Tablature pour ukulele, Tuto, Vidéo et photo sont disponible ici pour tous les Ukulelistes
 
AccueilGalerieFAQRechercherS'enregistrerMembresGroupesConnexion

Partagez | 
 

 Zelda majora's mask : Rockvale Temple theme

Voir le sujet précédent Voir le sujet suivant Aller en bas 
AuteurMessage
sugar



Nombre de messages : 8
Age : 24
Localisation : Fontainebleau-Seine et marne
Date d'inscription : 30/04/2008

MessageSujet: Zelda majora's mask : Rockvale Temple theme   Sam 24 Mai - 16:12

Je suis certain qu'il y a encore des fans de ce jeu en vie ! lol! Voici selon moi la plus belle chanson de Zelda de tout les temps !




Voici ma version au ukulele, le début est trop grave, j'ai pas encore trouvé, mais j'ai le plus important :
-
----------------------------------------------------------
-----------------------------0--------------------------
---------------------------------------------------------
--2-5-4---0-2-5-4-2-0-------------2-5-4---0-2-5-4-0-2--




--5-5-3----0-5-3-1-0----5-5-3----1-0-0-------------------
-----------------------------------------------------------
-----------------------------------------------------------
---------------------------------------------------0-------





--5-5-3----5-3-1-0----5-6-5-3-1-0------------------------
----------------------------------------------------------
---------------------------------------------------------
-------------------------------------------0------------




---------------------------------------------------
--0-5-8-7h8h7--3-0-5-8-7h8h7---0-5-8-7h8h7--3-5
---------------------------------------------------
---------------------------------------------------

ps : les hammer ne sonnent pas trop, désolé ^^


Voila, pas certain que beaucoup de gens conaissent, c'est le zelda le plus zarb de la série, mais moi j'adore, très bonne métaphore a l'enfance-adolescence
Revenir en haut Aller en bas
Voir le profil de l'utilisateur
Lepticidou
Admin
Admin


Nombre de messages : 1471
Age : 27
Localisation : Genève
Date d'inscription : 05/08/2007

MessageSujet: Re: Zelda majora's mask : Rockvale Temple theme   Sam 24 Mai - 17:02

c'est un des Zelda que j'ai le plus aimé, c'est pour moi l'une des meilleur adaptation 3D avec The Wind waker . ( merci pour la tabs)

_________________
"La paresse c'est se lever à six heures du matin, pour avoir plus de temps à ne rien faire." (o)==::
Revenir en haut Aller en bas
Voir le profil de l'utilisateur http://www.lepticidou.com
 
Zelda majora's mask : Rockvale Temple theme
Voir le sujet précédent Voir le sujet suivant Revenir en haut 
Page 1 sur 1
 Sujets similaires
-
» 5/03- Temple of baal/Vorkreist/Mahlkebre/Trashnasty - 81
» Fête du cidre Le Temple de Bretagne 44
» [HELP] Interview GAMMARAY - HAMMERFALL - EDGUY - VANDEN PLAS - IRON MASK
» TEMPLE OF PERDITION (blog)
» Vraiment pour se marrer Super Mario Theme

Permission de ce forum:Vous ne pouvez pas répondre aux sujets dans ce forum
Ukulele Tablature :: Tablatures Ukulele :: Tabs-
Sauter vers: