Ukulele Tablature

Tablature pour ukulele, Tuto, Vidéo et photo sont disponible ici pour tous les Ukulelistes
 
AccueilGalerieFAQRechercherS'enregistrerMembresGroupesConnexion

Partagez | 
 

 Le tourbillon de vie

Voir le sujet précédent Voir le sujet suivant Aller en bas 
AuteurMessage
chouque



Nombre de messages : 18
Age : 35
Localisation : Le Mans
Date d'inscription : 10/02/2008

MessageSujet: Le tourbillon de vie   Ven 11 Avr - 17:04

Le tourbillon de vie par Jeanne Moreau
mais il n'est pas fini si quelqu'un peu m'aider ...


G--0----------------0--0----------------0--0-----------0--0----------0
C-----0-------------------0--------------------2--2--2-------2--2--2--
E---------0-------------------0------------------------------------------
A------------0-------------------0---------------------------------------


G--0----------------0--0----------------0--0--------------------------
C-----0-------------------0--------------------2-----------------------
E---------0-------------------0-------------------3---------------------
A------------0-------------------0--------------------2--2--3----------


G------------------------
C------------------------
E ------------------------
A--3--3--3--3--5--7----
Revenir en haut Aller en bas
Voir le profil de l'utilisateur http://clshneuville.free.fr
chouque



Nombre de messages : 18
Age : 35
Localisation : Le Mans
Date d'inscription : 10/02/2008

MessageSujet: Re: Le tourbillon de vie   Jeu 1 Mai - 12:09

voici ici le lien pour trouver cette chanson en entier
tourbillon de vie Tablature
Revenir en haut Aller en bas
Voir le profil de l'utilisateur http://clshneuville.free.fr
 
Le tourbillon de vie
Voir le sujet précédent Voir le sujet suivant Revenir en haut 
Page 1 sur 1
 Sujets similaires
-
» La Sorcière Tourbillon
» Le tourbillon du Pakistan
» Johnny : festival Sion sous les étoiles

Permission de ce forum:Vous ne pouvez pas répondre aux sujets dans ce forum
Ukulele Tablature :: Tablatures Ukulele :: Tabs-
Sauter vers: