Ukulele Tablature

Tablature pour ukulele, Tuto, Vidéo et photo sont disponible ici pour tous les Ukulelistes
 
AccueilGalerieFAQRechercherS'enregistrerMembresGroupesConnexion

Partagez | 
 

 Mr Chat/Dionysos

Voir le sujet précédent Voir le sujet suivant Aller en bas 
AuteurMessage
Lepticidou
Admin
Admin


Nombre de messages : 1471
Age : 27
Localisation : Genève
Date d'inscription : 05/08/2007

MessageSujet: Mr Chat/Dionysos   Dim 30 Déc - 16:22



Mr chat au ukulélé accordé en GCEA :

Intro - chant du chat :

Accords :

Fa Lam Do Mib Solm Do Solm Do Fa Lam Do FA Lam Do





Tab :

-8-x-8875-----7--3-5--6-x-6653-----5--3-----5--3----0-x-8875-----7-3----8-x-8875-----7-3--

-5-x-55555--5-5--0-0--3-x-33333---33--0-0--33--0-0--1-x-55555--5-5-0-0--5-x-55555--5-5-0--0

-5-x-55555--4-4--0-0--3-x-33333---22--0-0--22--0-0--0-x-55555--4-4-0-0--5-x-55555--4-4-0--0

-5-x-55555--5----0-0--3-x-33333---3---0-0--3---0-0--2-x-55555--5---0-0--5-x-55555--5---0--0





Petite variation :

au lieu de :

3---0

0-0-1

0-0-0

0-0-2



jouer en rythme ternaire :

3-5---0

0-0-0-1

0-0-0-0

0-0-0-2



"Avec ses petis airs d'arbre en fleurs" :



Là, on gratte une fois chaque accord :



Fa(sur "avec") - Lam (sur "d'arbre") - Do(sur "fleur") -



Mib (sur "eu") - Solm(sur "grimper") - Do (sur "dans")



Sol (sur "bras") - Do (sur la deuxieme syllabe de "voila")



Sur la manche ça donne :



A--0-0-3-6-5-3-5-3

E--1-0-0-3-3-0-3-0

C--0-0-0-3-2-0-2-0

G--2-2-0-3-3-0-3-0



Chant de la sorcière :



Accords : Fa - La# - La#7



Tab ukulélé :

A--0-0-0-0--0-0-0-0--1-1-1-1--1-1-1-1

E--1-1-1-1--1-1-1-1--1-1-1-1--1-1-1-1

C--0-0-0-0--0-0-0-0--2-2-2-2--2-2-2-2

G--2-2-2-2--2-2-2-2--3-3-3-3--1-1-1-1



accord de Fa joué en aller retour

La# et La#7 joués vers le bas



Derniere partie - It's hard to be a cat :



Là plus de ukulélé : c'est de la guitare.

Le riff :

D--3---3-3-2-0--------------

A---------------3-0-3-3-0---

E-(1)------------------------

_________________
"La paresse c'est se lever à six heures du matin, pour avoir plus de temps à ne rien faire." (o)==::
Revenir en haut Aller en bas
Voir le profil de l'utilisateur http://www.lepticidou.com
 
Mr Chat/Dionysos
Voir le sujet précédent Voir le sujet suivant Revenir en haut 
Page 1 sur 1
 Sujets similaires
-
» Enquête : petit chat perdu.
» [Interview] Chat sur Habbo.it : "Gustav & Georg sont là, près de moi"
» [Interview] Chat avec les fans finlandais : "Le fond d'écran de Georg est une photo de Tom"
» Mika en chat sur Zap zone
» Un petit cadeau chat...rmant du Nouvel An!

Permission de ce forum:Vous ne pouvez pas répondre aux sujets dans ce forum
Ukulele Tablature :: Tablatures Ukulele :: Chords-
Sauter vers: