Ukulele Tablature

Tablature pour ukulele, Tuto, Vidéo et photo sont disponible ici pour tous les Ukulelistes
 
AccueilGalerieFAQRechercherS'enregistrerMembresGroupesConnexion

Partagez | 
 

 j' traine des pieds/Dionysos

Voir le sujet précédent Voir le sujet suivant Aller en bas 
AuteurMessage
Lepticidou
Admin
Admin


Nombre de messages : 1471
Age : 27
Localisation : Genève
Date d'inscription : 05/08/2007

MessageSujet: j' traine des pieds/Dionysos   Dim 30 Déc - 15:57

les accords uku de "j' traine des pieds" :

Couplet :

les 2 premiers accords se jouent à chaque fois sur le contretemps (façon regae...)

A----2----2----22--3

E----3----3----33--3

C----4----4----44--4

G----4----4----44--4 2 fois

A----2----2----22--3

E----2----2----22--2

C----3----3----33--3

G----2----2----22--2 2 fois



à répéter plusieurs fois



Refrain :

A----2----2----22--2

E----3----3----33--3

C----4----4----44--4

G----4----4----44--4



A----2----2----22--2

E----2----2----22--2

C----3----3----33--3

G----2----2----22--2


A----2----2----22--2

E----2----2----22--2

C----2----2----22--2

G----2----2----22--2


A----0----0----00--0

E----0----0----00--0

C----0----0----00--0

G----0----0----00--0

_________________
"La paresse c'est se lever à six heures du matin, pour avoir plus de temps à ne rien faire." (o)==::
Revenir en haut Aller en bas
Voir le profil de l'utilisateur http://www.lepticidou.com
 
j' traine des pieds/Dionysos
Voir le sujet précédent Voir le sujet suivant Revenir en haut 
Page 1 sur 1
 Sujets similaires
-
» Hawaii les pieds dans la neige ;-)
» Petis Chapeaux et autres Chansons pour les pieds....
» LES PIEDS SALES ( ex Les 7 Pieds Sales )
» y'a t'il quelqu'un parmi vous qui joue aussi avec les pieds?
» Pieds de guitare triple ou double

Permission de ce forum:Vous ne pouvez pas répondre aux sujets dans ce forum
Ukulele Tablature :: Tablatures Ukulele :: Chords-
Sauter vers: