Ukulele Tablature

Tablature pour ukulele, Tuto, Vidéo et photo sont disponible ici pour tous les Ukulelistes
 
AccueilGalerieFAQRechercherS'enregistrerMembresGroupesConnexion

Partagez | 
 

 Hawaï/pepe et sa guitar

Voir le sujet précédent Voir le sujet suivant Aller en bas 
AuteurMessage
Lepticidou
Admin
Admin


Nombre de messages : 1471
Age : 27
Localisation : Genève
Date d'inscription : 05/08/2007

MessageSujet: Hawaï/pepe et sa guitar   Ven 28 Déc - 16:42

Desolé pour le petit decalage du debut
##########################################
Chanson : Hawaï (Ukulele)
Artiste : Pépé & sa Guitare
Auteur : Frédéric Bujold
Fichier Provenant de : Partitions101!
###########################################
Provenance: PepeEtSaGuitare.com
Chanson: Hawaï (Ukulele)
Auteur: Frédéric Bujold

Hawaï – Pépé et sa guitare

(G C E A) - \'Ukulele\'

Petite intro

|-^7-7---7-5-5---5-|-3-3---3-2-2----|-^3-3---3-2---0--|-^3-3---3-(3)---3-|
|-^0---------------|----------------|-^1---------1----|-^0---------------|
|-^0---------------|----------------|-^0--------------|-^0-----------0---|
|-^0---0-------0---|-----0-------0--|-^2---2----------|-^0---0-----------|


|-^10-10---10-8---7--|-^8-8---8-7---5--|
|-^-7----------------|-^5--------------|
|-^-7----------------|-^5--------------|
|-^-7----7------7----|-^5---5-----5----|


|-^7-7---7-5---3--|-^2--2-2-(2)-2-2-2-|-2---------2--|
|-^0--------------|-^3--3-3-(3)-3-3-3-|-3------------|
|-^0--------------|-^2--2-2-(2)-2-2-2-|-2--2-4-5-----|
|-^0---0-----0----|-^0--0-0-(0)-0-0-0-|-0------------|


|-3-3-x-3-2-2-2-2-|-0-0-x-0-0-0-0-0-|-3-3-x-3-2-2-2-2-|-0-0-x-0-0-0-0-0-|
|-0-0-x-0-0-0-0-0-|-0-0-x-0-0-0-0-0-|-0-0-x-0-0-0-0-0-|-0-0-x-0-0-0-0-0-|
|-0-0-x-0-0-0-0-0-|-0-0-x-0-0-0-0-0-|-0-0-x-0-0-0-0-0-|-0-0-x-0-0-0-0-0-|
|-0-0-x-0-0-0-0-0-|-0-0-x-0-0-0-0-0-|-0-0-x-0-0-0-0-0-|-0-0-x-0-0-0-0-0-|


|-3-3-x-3-2-2-2-2-|-0-0-x-0-0-0-0-0-|-3-3-x-3-2-2-x-2-|-0-0-x-0-0-0-0-0-|
|-1-1-x-1-1-1-1-1-|-1-1-x-1-1-1-1-1-|-0-0-x-0-0-0-x-0-|-0-0-x-0-0-0-0-0-|
|-0-0-x-0-0-0-0-0-|-0-0-x-0-0-0-0-0-|-0-0-x-0-0-0-x-0-|-0-0-x-0-0-0-0-0-|
|-2-2-x-2-2-2-2-2-|-2-2-x-2-2-2-2-2-|-0-0-x-0-0-0-x-0-|-0-0-x-0-0-0-0-0-|


|-3-3-x-3-2-2-2-2-|-0-0-x-0-2-2-2-2-|-3-3-x-3-2-2-0-0-|-2---------2--|
|-3-3-x-3-3-3-3-3-|-3-3-x-3-3-3-3-3-|-3-3-x-3-3-3-3-3-|-3------------|
|-2-2-x-2-2-2-2-2-|-2-2-x-2-2-2-2-2-|-2-2-x-2-2-2-2-2-|-2--2-4-5-----|
|-0-0-x-0-0-0-0-0-|-0-0-x-0-0-0-0-0-|-0-0-x-0-0-0-0-0-|-0------------|


|-3-3-x-3-3-3-3---|-----7-------2-|
|-0-0-x-0-0-0-0-0-|-0s3---3-2-1---|
|-0-0-x-0-0-0-0---|---------------|
|-0-0-x-0-0-0-0---|---------------|


|-3-3-x-3-3-3-3-3-|-2-2-x-2-2-2-2-2-|
|-0-0-x-0-0-0-0-0-|-3-3-x-3-3-3-3-3-|
|-0-0-x-0-0-0-0-0-|-2-2-x-2-2-2-2-2-|
|-0-0-x-0-0-0-0-0-|-0-0-x-0-0-0-0-0-|

Refrain
Youhou j’ai fini de travailler aujourd’hui j’peux jouer avec mon
ukulele
Youjou j’ai fini de travailler et j’peux jouer avec toi
||--3-3-x-3-3-3-3-3-|-0-0-x-0-0-0-0-0-|-2-2-x-2-2-2-2-2-|-3-3-x-3-3-3-0-0---||
||o-0-0-x-0-0-0-0-0-|-1-1-x-1-1-1-1-1-|-3-3-x-3-3-3-3-3-|-0-0-x-0-0-0-1-1--o||
||o-0-0-x-0-0-0-0-0-|-0-0-x-0-0-0-0-0-|-2-2-x-2-2-2-2-2-|-0-0-x-0-0-0-0-0--o||
||--0-0-x-0-0-0-0-0-|-2-2-x-2-2-2-2-2-|-0-0-x-0-0-0-0-0-|-0-0-x-0-0-0-2-2---||



|-7-7-x-0-5-5-x-5-|-3-3-x-3-2-2-x-2-|-3-3-x-3-2-2-0-0-|-3-3-x-3-3-3-0-0-|
|-0-0-x-0-0-0-x-0-|-0-0-x-0-0-0-x-0-|-1-1-x-1-1-1-1-1-|-0-0-x-0-0-0-1-1-|
|-0-0-x-0-0-0-x-0-|-0-0-x-0-0-0-x-0-|-0-0-x-0-0-0-0-0-|-0-0-x-0-0-0-0-0-|
|-0-0-x-0-0-0-x-0-|-0-0-x-0-0-0-x-0-|-2-2-x-2-2-2-2-2-|-0-0-x-0-0-0-2-2-|



|-10-10-x-10-8-8-7-7-|-8-8-x-8-7-7-5-5-|
|--7--7-x--7-7-7-7-7-|-5-5-x-5-5-5-5-5-|
|--7--7-x--7-7-7-7-7-|-5-5-x-5-5-5-5-5-|
|--7--7-x--7-7-7-7-7-|-5-5-x-5-5-5-5-5-|


|-7-7-x-7-5-5-3-3-|-2-2-x-2-2-2-2-2-|-2---------2--|
|-0-0-x-0-0-0-0-0-|-3-3-x-3-3-3-3-3-|-3------------|
|-0-0-x-0-0-0-0-0-|-2-2-x-2-2-2-2-2-|-2--2-4-5-----|
|-0-0-x-0-0-0-0-0-|-0-0-x-0-0-0-0-0-|-0------------|


|-3-3-x-3-3-3-3---|-----7--------2-|
|-0-0-x-0-0-0-0-0-|-0s3---3-2-1----|
|-0-0-x-0-0-0-0---|----------------|
|-0-0-x-0-0-0-0---|----------------|


|-3-3-x-3-3-3-3-3-|-3-3-x-3-2-2-0-0-|
|-0-0-x-0-0-0-0-0-|-0-0-x-0-3-3-1-1-|
|-0-0-x-0-0-0-0-0-|-0-0-x-0-2-2-0-0-|
|-0-0-x-0-0-0-0-0-|-0-0-x-0-0-0-2-2-|


Refrain :
Youhou I’ve got nothing to do Today I can play on my ukulele
Youhou I’ve got nothing to do So I can play with you
||--3-3-x-3-3-3-3-3-|-0-0-x-0-0-0-0-0-|-2-2-x-2-2-2-2-2-|-3-3-x-3-3-3-0-0---||
||o-0-0-x-0-0-0-0-0-|-1-1-x-1-1-1-1-1-|-3-3-x-3-3-3-3-3-|-0-0-x-0-0-0-1-1--o||
||o-0-0-x-0-0-0-0-0-|-0-0-x-0-0-0-0-0-|-2-2-x-2-2-2-2-2-|-0-0-x-0-0-0-0-0--o||
||--0-0-x-0-0-0-0-0-|-2-2-x-2-2-2-2-2-|-0-0-x-0-0-0-0-0-|-0-0-x-0-0-0-2-2---||



|-3-3-x-3-3-3-3-3-|-2-2-x-2-2-2-2-2-|-0-0-x-0-0-0-0-0-|-3-3-x-3-3-3-3-3-|
|-0-0-x-0-0-0-0-0-|-4-4-x-4-4-4-4-4-|-1-1-x-1-1-1-1-1-|-0-0-x-0-0-0-0-0-|
|-0-0-x-0-0-0-0-0-|-4-4-x-4-4-4-4-4-|-0-0-x-0-0-0-0-0-|-0-0-x-0-0-0-0-0-|
|-0-0-x-0-0-0-0-0-|-4-4-x-4-4-4-4-4-|-2-2-x-2-2-2-2-2-|-0-0-x-0-0-0-0-0-|


|-3-3-x-3-3-3-3-3-|-2-2-x-2-2-2-2-2-|-0-0-x-0-0-0-0-0-|-3-3-x-3-3-3-3-3-|
|-0-0-x-0-0-0-0-0-|-4-4-x-4-4-4-4-4-|-1-1-x-1-1-1-1-1-|-0-0-x-0-0-0-0-0-|
|-0-0-x-0-0-0-0-0-|-4-4-x-4-4-4-4-4-|-0-0-x-0-0-0-0-0-|-0-0-x-0-0-0-0-0-|
|-0-0-x-0-0-0-0-0-|-4-4-x-4-4-4-4-4-|-2-2-x-2-2-2-2-2-|-0-0-x-0-0-0-0-0-|


|-3-3-x-3-2-2-2-2-|-0-0-x-0-0-0-0-0-|-3-3-x-3-2-2-2-2-|-0-0-x-0-0-0-0-0-|
|-0-0-x-0-0-0-0-0-|-0-0-x-0-0-0-0-0-|-0-0-x-0-0-0-0-0-|-0-0-x-0-0-0-0-0-|
|-0-0-x-0-0-0-0-0-|-0-0-x-0-0-0-0-0-|-0-0-x-0-0-0-0-0-|-0-0-x-0-0-0-0-0-|
|-0-0-x-0-0-0-0-0-|-0-0-x-0-0-0-0-0-|-0-0-x-0-0-0-0-0-|-0-0-x-0-0-0-0-0-|


|-3-3-x-3-2-2-2-2-|-0-0-x-0-0-0-0-0-|-3-3-x-3-2-2-x-2-|-0-0-x-0-0-0-0-0-|
|-1-1-x-1-1-1-1-1-|-1-1-x-1-1-1-1-1-|-0-0-x-0-0-0-x-0-|-0-0-x-0-0-0-0-0-|
|-0-0-x-0-0-0-0-0-|-0-0-x-0-0-0-0-0-|-0-0-x-0-0-0-x-0-|-0-0-x-0-0-0-0-0-|
|-2-2-x-2-2-2-2-2-|-2-2-x-2-2-2-2-2-|-0-0-x-0-0-0-x-0-|-0-0-x-0-0-0-0-0-|



|-3-3-x-3-2-2-2-2-|-0-0-x-0-2-2-2-2-|-3-3-x-3-2-2-0-0-|-2---------2--|
|-3-3-x-3-3-3-3-3-|-3-3-x-3-3-3-3-3-|-3-3-x-3-3-3-3-3-|-3------------|
|-2-2-x-2-2-2-2-2-|-2-2-x-2-2-2-2-2-|-2-2-x-2-2-2-2-2-|-2--2-4-5-----|
|-0-0-x-0-0-0-0-0-|-0-0-x-0-0-0-0-0-|-0-0-x-0-0-0-0-0-|-0------------|


|-3-3-x-3-3-3-3---|-----7--------2-|-3-^3--|
|-0-0-x-0-0-0-0-0-|-0s3---3-2-1----|---^0--|
|-0-0-x-0-0-0-0---|----------------|---^0--|
|-0-0-x-0-0-0-0---|----------------|---^0--|

###########################################
Partitions101, www.partitions101.net
Version : 2.5

_________________
"La paresse c'est se lever à six heures du matin, pour avoir plus de temps à ne rien faire." (o)==::
Revenir en haut Aller en bas
Voir le profil de l'utilisateur http://www.lepticidou.com
 
Hawaï/pepe et sa guitar
Voir le sujet précédent Voir le sujet suivant Revenir en haut 
Page 1 sur 1
 Sujets similaires
-
» l'histoire de la slide hawaïenne
» Bob Brozman explique la guitare hawaïenne sur BBC
» HARMOLIN STEEL Lap GUITAR Volu-Tone sur Ebay
» Fishman Resonator Guitar Pickup
» Ben Harper et la slide guitar

Permission de ce forum:Vous ne pouvez pas répondre aux sujets dans ce forum
Ukulele Tablature :: Tablatures Ukulele :: Tabs-
Sauter vers: