Ukulele Tablature

Tablature pour ukulele, Tuto, Vidéo et photo sont disponible ici pour tous les Ukulelistes
 
AccueilGalerieFAQRechercherS'enregistrerMembresGroupesConnexion

Partagez | 
 

 Chocobo

Voir le sujet précédent Voir le sujet suivant Aller en bas 
AuteurMessage
Lepticidou
Admin
Admin


Nombre de messages : 1471
Age : 27
Localisation : Genève
Date d'inscription : 05/08/2007

MessageSujet: Chocobo   Lun 24 Déc - 3:34

[size=9] Final Fantasy IX- Ukulele de Chocobo


Nobuo Uematsu
Ukulele



E S S S S S S S S S E S S S E S S S S S S S S S E S S S
A||---3--3-3-0-0-0-0-3-3-3-2--2-2-2-|--3--3-3-0-0-0-0-3-3-3-2--2-2-2-|
E||*--0--0-0-x-x-x-x-x-x-x-x--x-x-x-|--0--0-0-x-x-x-x-x-x-x-x--x-x-x-|
C||*--4--4-4-3-3-3-3-2-2-2-2--2-2-2-|--4--4-4-3-3-3-3-2-2-2-2--2-2-2-|
G||---x--x-x-x-x-x-x-x-x-x-x--x-x-x-|--x--x-x-x-x-x-x-x-x-x-x--x-x-x-|


E S S S S S S S S S E S S S E S S S S S S S S S E S S S
--3--3-3-0-0-0-0-3-3-3-2--2-2-2-|--3--3-3-0-0-0-0-3-3-3-2--2-2-2-|
--0--0-0-x-x-x-x-x-x-x-x--x-x-x-|--0--0-0-x-x-x-x-x-x-x-x--x-x-x-|
--4--4-4-3-3-3-3-2-2-2-2--2-2-2-|--4--4-4-3-3-3-3-2-2-2-2--2-2-2-|
--x--x-x-x-x-x-x-x-x-x-x--x-x-x-|--x--x-x-x-x-x-x-x-x-x-x--x-x-x-|


E S S S S S S S S S E S S S E S S S S S S S S S E S S S
--3--3-3-0-0-0-0-2-2-2-0--0-0-0-|--3--3-3-0-0-0-0-2-2-2-0--0-0-0-|
--0--0-0-x-x-x-x-x-x-x-x--x-x-x-|--0--0-0-x-x-x-x-x-x-x-x--x-x-x-|
--4--4-4-0-0-0-0-2-2-2-0--0-0-0-|--4--4-4-0-0-0-0-2-2-2-0--0-0-0-|
--x--x-x-x-x-x-x-x-x-x-x--x-x-x-|--x--x-x-x-x-x-x-x-x-x-x--x-x-x-|


E S S S S S S S S S E S S S E S S S S S S S S S E S S S
--3--3-3-1-1-1-1-3-3-3-3--3-3-3-|--3--3-3-1-1-1-1-3-3-3-3--3-3-3-|
--0--0-0-x-x-x-x-x-x-x-x--x-x-x-|--0--0-0-x-x-x-x-x-x-x-x--x-x-x-|
--4--4-4-2-2-2-2-4-4-4-3--3-3-3-|--4--4-4-2-2-2-2-3-3-3-3--3-3-3-|
--x--x-x-x-x-x-x-x-x-x-x--x-x-x-|--x--x-x-x-x-x-x-x-x-x-x--x-x-x-|


E S S S S S S S S S E S S S E S S S S S S S S S E S S S
--3--3-3-0-0-0-0-2-2-2-0--0-0-0-|--3--3-3-0-0-0-0-2-2-2-0--0-0-0-|
--0--0-0-x-x-x-x-x-x-x-x--x-x-x-|--0--0-0-x-x-x-x-x-x-x-x--x-x-x-|
--4--4-4-0-0-0-0-2-2-2-0--0-0-0-|--4--4-4-0-0-0-0-2-2-2-0--0-0-0-|
--x--x-x-x-x-x-x-x-x-x-x--x-x-x-|--x--x-x-x-x-x-x-x-x-x-x--x-x-x-|


E S S S S S S S S S E S S S E S S S S S S S S S E S S S
--3--3-3-1-1-1-1-3-3-3-3--3-3-3-|--3--3-3-1-1-1-1-3-3-3-3--3-3-3-|
--0--0-0-x-x-x-x-x-x-x-x--x-x-x-|--0--0-0-x-x-x-x-x-x-x-x--x-x-x-|
--4--4-4-2-2-2-2-4-4-4-3--3-3-3-|--4--4-4-2-2-2-2-3-3-3-3--3-3-3-|
--x--x-x-x-x-x-x-x-x-x-x--x-x-x-|--x--x-x-x-x-x-x-x-x-x-x--x-x-x-|


E S S S S S S S S S E S S S E S S S S S S S S S E S S S
--0--0-0-0-0-0-0-2-2-2-2--2-2-2-|--3--3-3-3-3-3-3-3-3-3-3--3-3-3-|
--x--x-x-x-x-x-x-x-x-x-x--x-x-x-|--x--x-x-x-x-x-x-3-3-3-3--3-3-3-|
--0--0-0-0-0-0-0-2-2-2-2--2-2-2-|--4--4-4-4-4-4-4-4-4-4-4--4-4-4-|
--x--x-x-x-x-x-x-x-x-x-x--x-x-x-|--x--x-x-x-x-x-x-x-x-x-x--x-x-x-|


E S S S S S S S S S E S S S E S S S S S S S S S E S S S
--0--0-0-0-0-0-0-2-2-2-2--2-2-2-|--3--3-3-3-3-3-3-3-3-3-3--3-3-3-|
--x--x-x-x-x-x-x-x-x-x-x--x-x-x-|--x--x-x-x-x-x-x-3-3-3-3--3-3-3-|
--0--0-0-0-0-0-0-2-2-2-2--2-2-2-|--4--4-4-4-4-4-4-4-4-4-4--4-4-4-|
--x--x-x-x-x-x-x-x-x-x-x--x-x-x-|--x--x-x-x-x-x-x-x-x-x-x--x-x-x-|


E S S S S S S S S S E S S S E S S S S S S S S S E S S S
--0--0-0-0-0-0-0-2-2-2-2--2-2-2-|--3--3-3-3-3-3-3-3-3-3-3--3-3-3-|
--x--x-x-x-x-x-x-x-x-x-x--x-x-x-|--x--x-x-x-x-x-x-3-3-3-3--3-3-3-|
--0--0-0-0-0-0-0-2-2-2-2--2-2-2-|--4--4-4-4-4-4-4-4-4-4-4--4-4-4-|
--x--x-x-x-x-x-x-x-x-x-x--x-x-x-|--x--x-x-x-x-x-x-x-x-x-x--x-x-x-|


E S S S S S S S S S E S S S E S S S S S S S S S E S S S
--1--1-1-1-1-1-1-1-1-1-1--1-1-1-|--1--1-1-1-1-1-1-2-2-2-2-2-2-2-|
--x--x-x-x-x-x-x-x-x-x-x--x-x-x-|--x--x-x-x-x-x-x-3-3-3-3-3-3-3-|
--2--2-2-2-2-2-2-2-2-2-2--2-2-2-|--2--2-2-2-2-2-2-x-x-x-x--x-x-x-|
--x--x-x-x-x-x-x-x-x-x-x--x-x-x-|--x--x-x-x-x-x-x-0-0-0-0--0-0-0-|


Q H. W
--3-----------------|--------------------||
--------------------|-------------------*||
--4-----------------|-------------------*||
--------------------|--------------------||

Desoler pour le decalage, je modifierais ceci en temps voulus

_________________
"La paresse c'est se lever à six heures du matin, pour avoir plus de temps à ne rien faire." (o)==::
Revenir en haut Aller en bas
Voir le profil de l'utilisateur http://www.lepticidou.com
 
Chocobo
Voir le sujet précédent Voir le sujet suivant Revenir en haut 
Page 1 sur 1

Permission de ce forum:Vous ne pouvez pas répondre aux sujets dans ce forum
Ukulele Tablature :: Tablatures Ukulele :: Tabs-
Sauter vers: